White Stripes - Seven Nation Army


Un cour de guitare en français sur le riff principal du morceau. Pour débutants. la tab :

e---------------------
----------------------
----------------------
----------------------
----------------------
E-5--5-8--5--3--1--0

e-------------------------
--------------------------
--------------------------
--------------------------
--------------------------
5--5-8--5--3--1--3-1-0






un cour en français (avec les partions sur la vidéo) du refrain de Seven Nation Army de White Stripes.

Le vrai guitariste utilise une guitare demi-caisse, sur micro double manche, avec pedal Whammy (en octave 2ton en dessous pour le couplet et normal pour solo et refrain), avec une pedal disto, et un bottlenecks sur le petit doigt
(voir une vidéo du concert pour plus d'informations)

partition pré-refrain :
-------------------------------------2-2 -
--------------------------------2-2-2-2-
----5-5-5-5-5-5-5-5-0-0-0-0-0-0-
E--3-3-3-3-3-3-3-3-0-0-0-0-0-0-

Refrain :
---9--9/12-9--7--5-4-
---9--9/12-9--7--5-4-
---7--7/10-7--5--3-2-
E-----------------------

---9--9/12-9--7-5/7-5--4-
---9--9/12-9--7-5/7-5--4-
---7--7/10-7--5-3/5-3--2-
E----------------------------

Réglage de mon ampli :
Gain: 6.5 , Bass: 0, Middle: -3, Treeble: -1 , Volume: 1
J'utilise le micro simple manche.







un cour en français avec les partion sur le solo de Seven Nation Army de white stripe et un récapitulatif de la chanson entière.

partition solo :
e-----------------------------
------------------------^-------
---/9--9-12--9-11-12--11-

e--------------------------------------- -
---------------------------------------- -
---/9--9-12--14--12-12--14-12-11-
........................................ ..^...
e---/12--12-15--12-14-15--14-

e---/12--12-15--17--15-15--17-15-14-





04/01/2009
3 Poster un commentaire
Ces blogs de Musique pourraient vous intéresser

Inscrivez-vous au blog

Soyez prévenu par email des prochaines mises à jour

Rejoignez les 124 autres membres