System Of A Down -Roulette

Il y a des écart de doigt pas très facile, et une position de main à décaler sur tout le manche ce qui va nécessité un peu de muscle de la main gauche et une bonne précision. Attention ici il faut jouer au doigt, regarde le cour que je donne à propos de ça pour plus de détailles.


Pour le solo, il va falloir assez bien le connaître (l’avoir bien écouter) car il y a pas mal de notes qui sont longue, et qu’il faut laisser sonné un certain temps, et d’autre notes qu’ils faudra jouer assez rapidement, je te consseille donc d’utiliser un médiator et de jouer en aller-retour.


Pour séduire une personne, je pense que c’est LA chanson qu’il faut jouer :-)


Voici la tab :


Un cour en français avec la tab sur la vidéo, du couplet, le refrain et le solo de la chanson de System Of A Down, Roulette. Je la joue sur une acoustique folk.

voici la tab :


couplet

E|------------------------|

B|-------4----------4-----|

G|------------------------|

D|------------------------|

A|--3-------3----3-----3--|

E|------------------------|


E|------------------------|

B|-------8----------3-----|

G|------------------------|

D|------------------------|

A|--6----------1-------1--|

E|----------3-------------|


E|-----------------------|

B|-------6----------6----|

G|-----------------------|

D|-----------------------|

A|--4-------4----4-------|

E|-----------------------|


E|---------------------------|

B|---------------------------|

G|----------5----------7-----|

D|---------------------------|

A|---------------------------|

E|--3--4-------4--6-------6--|


refrain

E|------------------------|

B|-------4----------4-----|

G|------------------------|

D|------------------------|

A|--3-------3----3-----3--|

E|------------------------|


E|------------------------|

B|------------------------|

G|-------4----------4-----|

D|------------------------|

A|------------------------|

E|--3-------3----3-----3--|


E|-----------------------|

B|-----------------------|

G|-------7----------7----|

D|-----------------------|

A|-----------------------|

E|--6-------6----6-------|


E|---------------------------|

B|---------------------------|

G|----------5----------7-----|

D|---------------------------|

A|---------------------------|

E|--3--4-------4--6-------6--|


Solo

E|-8-----8-10-11-----10-11-13|

B|---------------------------|

G|---------------------------|

D|---------------------------|

A|---------------------------|

E|---------------------------|


E|-10-11-13--11--10--8-|

B|---------------------|

G|---------------------|

D|---------------------|

A|---------------------|

E|---------------------|


E|--10--11--10--8-|

B|----------------|

G|----------------|

D|----------------|

A|----------------|

E|----------------|


E|--------------------------|

B|---8--8------8-9--11--9--8|

G|--------------------------|

D|--------------------------|

A|--------------------------|

E|--------------------------|


E|---------------------------|

B|--6--8--9--8--6--6---------|

G|------------------------3--3-|

D|---------------------------|

A|---------------------------|

E|---------------------------|


E|--------------------------|

B|--/6--4--4--3--3--1--1----|

G|--/3--1--1--0--0--0--0----|

D|--------------------------|

A|--------------------------|

E|--------------------------|





09/01/2009
2 Poster un commentaire
Ces blogs de Musique pourraient vous intéresser

Inscrivez-vous au blog

Soyez prévenu par email des prochaines mises à jour

Rejoignez les 124 autres membres