Noel - Vive Le Vent, version ROCK

Voici les vidéos pour apprendre cette chanson de noel version Rock : Vive le Vent  (ou Jingle Bells en anglais)

 

 

 

Voici les enregistrements audio de NOEL - Vive le Vent version Rock, créé par Boudartiste : 

 

 

- Chanson totale :

 

- Chanson sans guitare mélodique :

 

- Chanson sans guitare rythmique : 

 

- Chanson avec basse batterie seul : 

 

 

Voici maintenant les partitions sous format PDF : 

Mélodie Vive le Vent.pdf

Rythmique Vive le Vent.pdf

Basse Vive le Vent.pdf

Batterie Vive le Vent.pdf

 

 

 

Partition de la guitare mélodique :

 

MELODIE

 

Riff 1 a :

 

E||-----------------------|------------------------||

B||-----------------------|------------------------||

G||-------9--7--5---------|--------9--7--5---------||

D||-5--5-----------5------|-5-5-5-----------7------||

A||-----------------------|------------------------||

E||-----------------------|------------------------||

       ^     ^     ^    ^       ^     ^     ^     ^  

 

E||-----------------------|--------------------------||

B||-----------------------|--------------------------||

G||-------10--9--7--------|-12--14--12--10--7--9-----||

D||-7--7------------9-----|--------------------------||

A||-----------------------|--------------------------||

E||-----------------------|--------------------------||

       ^      ^     ^   ^        ^       ^     ^   ^  

 

Riff 1 b :

 

E||-----------------------|------------------------||

B||-----------------------|------------------------||

G||--------9--7--5--------|--------9--7--5---------||

D||-----5-----------5-----|--5--5-----------7------||

A||-----------------------|------------------------||

E||-----------------------|------------------------||

        ^     ^     ^    ^      ^     ^     ^     ^  

 

E||----------------------------|---------------------------||

B||----------------------------|---------------------------||

G||-------10--9--7--12--12--12-|-12--14--12--10--7--5---12-||

D||-7--7-----------------------|---------------------------||

A||----------------------------|---------------------------||

E||----------------------------|---------------------------||

       ^      ^      ^       ^        ^       ^     ^    ^  

 

 

Riff 2 a :

 

E||--------------------------|--------------------------||

B||--------------------------|--------------------------||

G||--9--9--9-----9--9--9-----|--9--12----------9--------||

D||--------------------------|---------10--12-----------||

A||--------------------------|--------------------------||

E||--------------------------|--------------------------||

     ^     ^     ^     ^        ^      ^       ^     ^  

 

 

E||----------------------------------|-------------------------||

B||----------------------------------|-------------------------||

G||--10--10--10---10-12-10-9--9--9-9-|--9--7--7--9--7----12----||

D||----------------------------------|-------------------------||

A||----------------------------------|-------------------------||

E||----------------------------------|-------------------------||

      ^       ^       ^       ^         ^     ^     ^     ^  

 

 

Riff 2 b :

 

E||--------------------------|--------------------------||

B||--------------------------|--------------------------||

G||--9--9--9-----9--9--9-----|--9--12----------9--------||

D||--------------------------|---------10--12-----------||

A||--------------------------|--------------------------||

E||--------------------------|--------------------------||

     ^     ^     ^     ^        ^     ^     ^     ^  

 

E||----------------------------------|----------------------------||

B||----------------------------------|----------------------------||

G||--10--10--10---10-12-10-9--9--9-9-|--12--10--9-----------------||

D||----------------------------------|-------------12--10---------||

A||----------------------------------|----------------------------||

E||----------------------------------|----------------------------||

      ^       ^       ^       ^          ^      ^       ^      ^

 

 

 

 

 

 

Partition de la guitare rythmique : 

 

RYTHMIQUE :

 

Riff 1 a :

 

E||----------------------|---------------------------||

B||----------------------|---------------------------||

G||----------------------|---------------------------||

D||--------------5----5--|---------5------5--7----7--||

A||--------------5----5--|---------5------5--7----7--||

E||--------------3----3--|--3-3-3--3--3-3-3--5----5--||

     ^     ^     ^    ^         ^     ^      ^    ^  

 

 

E||---------------------------|---------------------------||

B||---------------------------|---------------------------||

G||---------------------------|---------------------------||

D||---------7------7--9----9--|---------9------9--10------||

A||---------7------7--9----9--|---------9------9--10------||

E||--5-5-5--5--5-5-5--7----7--|--7-7-7--7--7-7-7---8------||

         ^     ^      ^    ^         ^     ^       ^    ^  

 

 

Riff 1 b :

 

E||-----------------------|---------------------------||

B||-----------------------|---------------------------||

G||-----------------------|---------------------------||

D||-----12--------5----5--|---------5------5--7----7--||

A||-----12--------5----5--|---------5------5--7----7--||

E||-----10--------3----3--|--3-3-3--3--3-3-3--5----5--||

        ^    ^    ^    ^         ^     ^      ^    ^  

 

E||---------------------------|----------------------------||

B||---------------------------|----------------------------||

G||---------------------------|------------------------12--||

D||---------7------7--9----9--|---------9--------10----12--||

A||---------7------7--9----9--|---------9--------10----10--||

E||--5-5-5--5--5-5-5--7----7--|--7-7-7--7--7-7----8--------||

         ^     ^      ^    ^         ^     ^      ^     ^  

 

 

 

Riff 2 a :

 

E||--------------------------|--------------------------||

B||--------------------------|--------------------------||

G||--------------------------|--------------------------||

D||--2--2--2-----2--2--2-----|--2--2--2----2-----2------||

A||--2--2--2-----2--2--2-----|--2--2--2----2-2-2-2------||

E||--0--0--0-----0--0--0-----|--0--0--0----0-0-0-0------||

     ^     ^     ^     ^        ^     ^      ^      ^  

 

E||-------------------------------|----------------------||

B||-------------------------------|----------------------||

G||-------------------------------|----------------------||

D||--3--3--3--------------3-------|--5------------/10----||

A||--3--3--3--3-3-3-3-3-3-3-------|--5------------/10----||

E||--1--1--1--1-1-1-1-1-1-1---1-1-|--3-------------/8----||

     ^     ^      ^       ^          ^    ^    ^    ^  

 

Riff 2 b :

 

E||--------------------------|--------------------------||

B||--------------------------|--------------------------||

G||--------------------------|--------------------------||

D||--2--2--2-----2--2--2-----|--2--2--2----2-----2------||

A||--2--2--2-----2--2--2-----|--2--2--2----2-2-2-2------||

E||--0--0--0-----0--0--0-----|--0--0--0----0-0-0-0------||

     ^     ^     ^     ^        ^     ^      ^      ^  

 

E||-------------------------------|----------------------||

B||-------------------------------|----------------------||

G||-------------------------------|----------------------||

D||--3--3--3--------------3-------|--5--------/10--------||

A||--3--3--3--3-3-3-3-3-3-3-------|--5--------/10--------||

E||--1--1--1--1-1-1-1-1-1-1---1-1-|--3---------/8--------||

     ^     ^      ^       ^          ^    ^     ^     ^  

 

 

voila, passer de JOYEUSES FETES DE FIN D'ANNEE 

 

JOYEUX NOEL !!!



22/12/2010
5 Poster un commentaire
Ces blogs de Musique pourraient vous intéresser

Inscrivez-vous au blog

Soyez prévenu par email des prochaines mises à jour

Rejoignez les 124 autres membres