Nirvana – Smell Like Teen Spirit

          Une nouvelle chanson de Nirvana, qui est un peu plus dur que les autre mais tellement agréable à jouer n'est-ce pas ? Alors prends ta guitare (électrique de préférence) et commence à lire ! !


          Pour ce morceau il va falloir utiliser les power-chordes avec une vive allure, et utiliser les mutes, toute nouvelle technique qu'il faudra apprendre à utiliser (pour plus de détaille regardé le cour qui porte sur les mutes).


          Alors passons maintenant à une seconde chanson du grand Nirvana (la première étant Come As You Are). Chanson qui est elle aussi connu, est un peu plus compliqué que les autre chansons présenté précédemment, car il va falloir utiliser les power-chordes (voir le cour) et déplacer ça main gauche de gauche à droite et de haut en bas (c'est à dire sur différente case, et différentes cordes) en gardant cette position. Et tous ça avec une assez grande vitesse.


          En plus de l'utilisation de power-chordes, il y a aussi l'apparition de mutes dans ce morceau, c'est en faite lorsque l'on bloque les cordes (avec la main gauche habituellement) pour donner un son sourd et étouffé. Attention tout de même à ne pas jouer d'harmoniques lors de cette action, (lisez le cour sur les mutes plus de détailles).


          Pour le couplet autrement il n'y a aucunes difficulté, il suffit de jouer 2 notes pendant ce temps, veillez tout de même à garder le bon rythme.


          Pour le solo, il n'y a pas non plus de très grande difficulté, jouez le lentement comme d'habitude et augmentez la vitesse au fur et à mesure.



          Un cour en français (avec partition sur la vidéo) sur le refrain et le couplet de Smell Like Teen Spirit de Nirvana


partition :

refrain :

---------------------3-3---------------- --------6-6--

-3---3--3-x-x-x-x-3-3--5/6---6--6-x-x-x- x-6-6--

-3---3--3-x-x-x-x-1-1--5/6---6--6-x-x-x- x-4-4--

-1---1--1-x-x-x-x-------3/4---4--4-x-x-x -x------


-------------------^-------------------- -----

-------------------0-------------------- -----

-------------------4-------------------- -----

-3--2-3--4-4--------3--2-3--4--8-8-6----

-3--2-3--4-4--------3--2-3--4--8-8-6----

-1--0-1--2-2--------1--0-1--2--6-6-4----


couplet :

e----1-----

-1--------


e---1--1--1--1-

-1--1--1--1---



          Un cour en français (avec la partition sur la vidéo) sur le solo de Smell Like Teen Spirit de Nirvana

partition :
.................^
-----8-10----8-8--6-5--6-5-------------^ -----------------
-10--------6----------------------8-6--8 -8--6-5--6-5--6-5--3




09/01/2009
6 Poster un commentaire
Ces blogs de Musique pourraient vous intéresser

Inscrivez-vous au blog

Soyez prévenu par email des prochaines mises à jour

Rejoignez les 124 autres membres