URGENT !!! :D (Kaboul-Manhattan Renaus)

0 appréciations
Hors-ligne
Salut :D je cherche déséspérement Kaboul-Manhattan de Renaud avec Axelle Raid.
Surout l'intro et le solo. Si vous pouviez me conseillez le reglege d'ampli svp :)
Jet LAG ARKANE .
Vive Boudartiste :'D .
Steve VAI <3<3<3
Van'HALEN <3<3<3
SLASH <3<3<3
NIRVANA <3<3<3 R.I.P Kurt Cobain <3<3<3

0 appréciations
Hors-ligne
Pour l'intro :
E||--------0-------0--------|--------0--------------||
A||-----0-------------0-----|-----0-----------------||
D||-------------------------|-----------------------||
G||--2--------0----------0--|-----------------------||
B||-------------------------|--3--------2-----------||
E||-------------------------|-----------------------||

Pour le solo :
E|------------------------|------------------------|---------------|--------------|
B|-----0-1-0--------------|-----0-1-0--------------|-----0-1--1----|--------------|
G|---2-------2---0--------|---2-------2---0--------|---2----------2|-----2-2-2-1-1|
D|-2-----------2---3-3-2-0|-2-----------2---3-3-2-0|-2----------2--|-0-0----------|
A|------------------------|------------------------|---------------|--------------|
E|------------------------|------------------------|---------------|--------------|

tiré de //www.partoch.com/artistes/tablature,RENAUD,MANHATTAN+KABOUL,3070410.html

Mais il faut s'approprier la tab parce que si tu la joues comme c'est noté ça va être un peu chiant, faut rajouter des bends et des slides pour rendre le solo un peu plus vivant. Sinon les notes sont justes.


Pour le réglage de l'ampli, il faut avoir un peu de disto pour le solo, juste un peu. Avec un peu plus de basse, et un peu moins de médium et plus d'aigu. Le but c'est d'avoir un son un peu bluesy, mielleux mais saturé et un peu plus aigu quand même, c'est un solo pas une rythmique. Faut utilisé le micro manche (si possible).
C'est peu être mieux de jouer avec les doigts pour avoir un son encore plus rond à l'attaque, comme dans la chanson originale.

Pour jouer l'intro ou les couplet/refrain le mieux serait d'avoir une acoustique, mais si tu joues sur électrique prend le micro manche ou intermédiaire pour avoir un son rond ou neutre. Le réglage de l'ampli dépend de ce que tu joues, si tu fais des accords en battement, ou si tu fais des arpèges ...

Voilà, amuses toi bien ;)

0 appréciations
Hors-ligne
Merci beaucoup :).
Pourrait tu m'expliquer quel micro choisir et pourquoi s'il te plait quand tu pourra ? :) merci encore
Jet LAG ARKANE .
Vive Boudartiste :'D .
Steve VAI <3<3<3
Van'HALEN <3<3<3
SLASH <3<3<3
NIRVANA <3<3<3 R.I.P Kurt Cobain <3<3<3

pour les accords:

//songbook.blog4ever.com/blog/index-84791.html

salut, a+

0 appréciations
Hors-ligne
pour les accords

//songbook.blog4ever.com/blog/index-84791.html

a+
gegesurfeur

Répondre
Pseudo :
Adresse e-mail:


Se souvenir de mes infos ( pseudo et e-mail ) :
Cochez la case ci-contre :

Ces blogs de Musique pourraient vous intéresser

Inscrivez-vous au blog

Soyez prévenu par email des prochaines mises à jour

Rejoignez les 124 autres membres