cour 8: Green Day - Wake me up when september ends

Donc comme je le disais en intro, une chanson super connu, et relativement simple. Pour ce morceau il n’y a pas telement de difficulté, sauf peu être certain doigt qu’il faut réussir à bien placer afin que ça sonne mieux surtout au niveau des accords sur 6 cordes). Le solo est franchement très simple, quelqu’un qui n’a que quelque jour ou semaine de guitare derrière lui, peu assez aisément le jouer. Je n’ai plus qu’à vous souhaiter bonne apprentisage et surtout amusez-vous ! !


Voilà ce qui encadré les vidéos :

Intro

E||------------------------|------------------------||

B||--------3--------3------|--------3--------3------||

G||-----0--------0---------|-----0--------0---------||

D||--5--------5------------|--5--------5------------||

A||------------------------|------------------------||

E||------------------------|------------------------||


Couplet

riff 1

E||------------------------|------------------------||

B||--------3--------3------|--------3--------3------||

G||-----0--------0---------|-----0--------0---------||

D||--5--------5------------|--4--------4------------||

A||------------------------|------------------------||

E||------------------------|------------------------||


E||------------------------|------------------------||

B||--------3--------3------|--------3--------3------||

G||-----0--------0---------|-----0--------0---------||

D||--2--------2------------|--0--------0------------||

A||------------------------|------------------------||

E||------------------------|------------------------||


riff 2

E||-------------------------|-------------------------||

B||--------5--------5-------|--------4--------4-------||

G||--------5--------5--5----|--------5--------5--5----||

D||-----5--------5----------|-----5--------5----------||

A||--3--------3-------------|--3--------3-------------||

E||-------------------------|-------------------------||


E||-------------------------|-------------------------||

B||--------3--3-----3----3--|--------3--3-----3----3--||

G||--------0--0-----0-------|--------0--0-----0-------||

D||-----0-----0--0----------|-----0-----0--0----------||

A||-------------------------|-------------------------||

E||--3----------------------|--3----------------------||


ou


riff 2'

E||-------------------------|-------------------------||

B||--------5--------5-------|--------4--------4-------||

G||-----5--5-----5--5--5----|-----5--5-----5--5--5----||

D||-------------------------|-------------------------||

A||--3--------3-------------|--3--------3-------------||

E||-------------------------|-------------------------||


E||-------------------------|-------------------------||

B||--------3--------3-------|--------3--------3-------||

G||-----0--0--0-----0----0--|-----0--0--0-----0----0--||

D||-------------------------|-------------------------||

A||-------------------------|-------------------------||

E||--3-----------3----------|--3-----------3----------||


variente du riff 2 (pendant le 2 ème couplet)

E||-------------------------|--------------------------||

B||--------3--------3-------|--------3-----------3-----||

G||-----0--0--0-----0----0--|-----0--0--0-----0--0--0--||

D||-------------------------|--------------------------||

A||-------------------------|--------------------------||

E||--3-----------3----------|--3-----------2-----------||


E||----------------------|--------------------------||

B||--------0--------0----|--------3---------3-----3-||

G||--------0--------0--0-|--------4---------4-------||

D||-----2--------2-------|-----4----------4---------||

A||----------------------|--2----------2------------||

E||--0--------0----------|--------------------------||


E||-------------------------|--------------------------||

B||--------5--------5-------|--------3-----------3-----||

G||-----5--5--5-----5----5--|-----0--0--0-----0--0--0--||

D||-------------------------|--------------------------||

A||--3-----------3----------|--------------------------||

E||-------------------------|--3-----------2-----------||


E||-------------------------|-------------------------||

B||--------0--------0-------|--------3--------3-------||

G||-----0--0--0-----0----0--|-----0--0--0-----0----0--||

D||--2-----------2----------|-------------------------||

A||-------------------------|--2-----------2----------||

E||-------------------------|-------------------------||


E||-------------------------|--------2--------2-------||

B||--------5--------5-------|--------3--------3-------||

G||-----5--5--5-----5----5--|-----0-----0----------0--||

D||-------------------------|--0-----------0----------||

A||--3-----------3----------|-------------------------||

E||-------------------------|-------------------------||


refrain  riff 3

E||--------------------------|--------------------------||

B||--5--5--5--5--5--5--5--5--|--4--4--4--4--4--4--4--4--||

G||--5--5--5--5--5--5--5--5--|--5--5--5--5--5--5--5--5--||

D||--5--5--5--5--5--5--5--5--|--5--5--5--5--5--5--5--5--||

A||--3--3--3--3--3--3--3--3--|--3--3--3--3--3--3--3--3--||

E||--------------------------|--------------------------||


E||--------------------------|--------------------------||

B||--------------------------|--------------------------||

G||--------------------------|--------------------------||

D||--5--5--5--5--5--5--5--5--|--5--5--5--5--5--5--5--5--||

A||--5--5--5--5--5--5--5--5--|--5--5--5--5--5--5--5--5--||

E||--3--3--3--3--3--3--3--3--|--3--3--3--3--3--3--3--3--||


variante (pont)

E||--------------------------|--------------------------||

B||--------------------------|--------------------------||

G||--------------------------|--------------------------||

D||--5--5--5--5--5--5--5--5--|--5--5--5--5--5--5--5--5--||

A||--5--5--5--5--5--5--5--5--|--5--5--5--5--5--5--5--5--||

E||--3--3--3--3--3--3--3--3--|--3--3--3--3--2--2--2--2--||


E||--------------------------|--------------------------||

B||--------------------------|--3--3--3--3--3--3--3--3--||

G||--------------------------|--4--4--4--4--4--4--4--4--||

D||--2--2--2--2--2--2--2--2--|--4--4--4--4--4--4--4--4--||

A||--2--2--2--2--2--2--2--2--|--2--2--2--2--2--2--2--2--||

E||--0--0--0--0--0--0--0--0--|--------------------------||


1ère fois, fin n°1 =

E||--------------------------|--------------------------||

B||--------------------------|--------------------------||

G||--5--5--5--5--5--5--5--5--|--------------------------||

D||--5--5--5--5--5--5--5--5--|--5--5--5--5--5--5--5--5--||

A||--3--3--3--3--3--3--3--3--|--5--5--5--5--5--5--5--5--||

E||--------------------------|--3--3--3--3--2--2--2--2--||


2ème fois, fin n°2 =

E||--------------------------|--------------------------||

B||--------------------------|--------------------------||

G||--5--5--5--5--5--5--5--5--|--------------------------||

D||--5--5--5--5--5--5--5--5--|--5--5--5--5--5--5--5--5--||

A||--3--3--3--3--3--3--3--3--|--5--5--5--5--5--5--5--5--||

E||--------------------------|--3--3--3--3--2--2--2--2--||


solo

E||-----------------------------------|----------------------------------||

B||-----------12----------12------12--|----------12----------12------12--||

G||--/12--12------12--12------12------|--11--11------11--11------11------||

D||-----------------------------------|----------------------------------||

A||-----------------------------------|----------------------------------||

E||-----------------------------------|----------------------------------||


E||----------------------------------|----------------------------------||

B||----------13----------13------13--|--15--15--15--15--15--15--15--15--||

G||--12--12------12--12------12------|--12--12--12--12--11--11--11--11--||

D||----------------------------------|----------------------------------||

A||----------------------------------|----------------------------------||

E||----------------------------------|----------------------------------||


E||----------------------------------|----------------------------------||

B||----------13----------13------13--|----------12----------12------12--||

G||--12--12------12--12------12------|--12--12------12--12------12------||

D||----------------------------------|----------------------------------||

A||----------------------------------|----------------------------------||

E||----------------------------------|----------------------------------||


E||----------------------------------|----------------------------------||

B||----------13----------13------13--|--15--15--15--15--15--15--15--15--||

G||--12--12------12--12------12------|--12--12--12--12--12--12--12--12--||

D||----------------------------------|----------------------------------||

A||----------------------------------|----------------------------------||

E||----------------------------------|----------------------------------||


E||----------------------------------|----------------------------------||

B||--15--15--15--15--15--15--15--15--|--15--15--15--15--15--15--15--15--||

G||--11--11--11--11--11--11--11--11--|--12--12--12--12--12--12--12--12--||

D||----------------------------------|----------------------------------||

A||----------------------------------|----------------------------------||

E||----------------------------------|----------------------------------||



Veuillez recopier cette tab au format courrier new pour plus de clarté et de facilitation de lecture


j'utilise le micro simple intermédiaire avec le canal crunch de mon ampli et le crunch à font ( 10 )

bass 5, mdi 5, treble 6




21/04/2009
5 Poster un commentaire
Ces blogs de Musique pourraient vous intéresser

Inscrivez-vous au blog

Soyez prévenu par email des prochaines mises à jour

Rejoignez les 124 autres membres