accorder sa guitare : les vidéos

vidéo 1 :

commentaires de la vidéo 1 :

 

cour de guitare en français sur la façon d'accorder sa guitare (de magnière traditionnelle / à l'oreille)

utilisation d'un diapaison de LA (pour la corde de LA (2ème corde en partant du haut)
puis accordage avec la technique :

e--------------------------------0-
--------------------------0---5----
-------------------0---4-----------
------------0---5------------------
-----0---5-------------------------
E-5--------------------------------

puis précision avec la technique des harmoniques naturelles (poser le doigt de la main gauche sur la corde au niveau de la frette mais sans appuyer)

e---------------------------------7-
---------------------------5---5----
--------------------7---4-----------
-------------7---5------------------
------7---5-------------------------
E-5---------------------------------

la guitare est accorder
(voir cour suivant (cour guitare n°11: accorder sa guitare partie 2) pour savoir comment utiliser l'accordeur électronique et comment accorder sa guitare en Drop D

 

 

 

vidéo 2 :

 

commentaires de la vidéo 2 :

 

cour de guitare en français sur l'utilisation d'un accordeur électronique.

système de DELs (diode électro luminésantes) les DEL du desous sont fêtes pour indiquer la corde joué
les DEL du dessus sont fêtes pour indiquer si la corde joué est trop tendu ou pas assez

jouer plusieurs fois la même corde et observer les DEL, et tournez les mécanique en fonction du résultat indiqué par les DEL, puis recommencer
si la corde est bien accordé passez au cordes suivantes

accordage en Drop D (à partir d'un accordage standare)
détendez la corde de MI grave d'un ton (soit de 2cases)

technique :
jouez la 1ère et la 3ème corde en même temps et détendez la corde de MI grave jusqu'à atteindre le même son avec la deux cordes

----0------0-----
-----------------
E--0------0-----

technique de précision :
jouez en harmonique (froller les cordes au niveau des frettes)
-----5------5-
E-7------7----

le son doit être le même

 


accorder à l'oreille

accorder avec un accordeur électronique



03/11/2008
0 Poster un commentaire

A découvrir aussi


Ces blogs de Musique pourraient vous intéresser

Inscrivez-vous au blog

Soyez prévenu par email des prochaines mises à jour

Rejoignez les 124 autres membres