9 ème cour : Cream - Sunshine of your love

Alors ici on va attaquer une chanson assez vieille mais qui a son charme et sa rythmique mythique. Donc au niveau de la partition c’est assez répétitif donc au niveau de la rythmique ça sera simple à apprendre. En suite il y a quelque variante dans le morceau qui sont à bosser et à ne pas « zaper » car c’est elles qui apporte tout le charme de cette chanson.

Une dernière chose encore, fait bien les vibrer, tiré, les mutes et les temps de silence en bloquant les cordes (surtout pour le refrain) car la encore ça apporte un petit coté sympa et changeant (et oui parce que sinon c’est toujours … pareil ^^). Donc apprenez la et fait-vous plaisir surtout ! !


Voici les vidéo :


Et voici la tab qui les accompagne :



Un cour en français, avec la tab sur la vidéo, sur la chanson, sur la chanson de Cream, Sunshine of your love. Voici la tab :


intro


E||--------------------------------|---- --------------------------||

B||--------------------------------|---- --------------------------||

G||--------------------------------|---- --------------------------||

D||--12--12--10--12----------------|---- --------------------------||

A||---------------------12-----11--|---- -10---------8~------------||

E||--------------------------------|---- --------10--------10--10--||


E||---------------------------------|--- ---------------------------||

B||---------------------------------|--- ---------------------------||

G||---------------------------------|--- ---------------------------||

D||--/12--12--10--12----------------|--- ---------------------------||

A||----------------------12-----11--|--- --10---------8~-----------||

E||---------------------------------|--- ----------10--------10-----||


couplet 1

début

E||--------------------------------|---- ---------------------------||

B||--------------------------------|---- ---------------------------||

G||--11--11---9--11----------------|---- --------12--10~------------||

D||---x---x---x---x----------------|---- --------12---------12------||

A||--12--12--10--12-----12-----11--|---- -10------------------------||

E||--10--10---8--10----------------|---- -----------------------10--||


E||---------------------------------|--- ----------------------------||

B||---------------------------------|--- ---------12-----------------||

G||--11--11---9S--11----------------|--- ---------12--10~------------||

D||---x---x---x----x----------------|--- ---------12---------12------||

A||--12--12--10S--12-----12-----11--|--- --10--------------------10--||

E||--10--10---8S--10----------------|--- ----------------------------||


partie aigu

E||----------------------------------|-- --------------------------------||

B||--12--12--10--12------------------|-- --------------------------------||

G||--12--12--10--12------------------|-- --------------------------------||

D||--12--12--10--12-----12-----xg11--|-- ---10---------8~---(8)b---------||

A||--10--10---8--10------------------|-- ----------10------------10--10--||

E||----------------------------------|-- --------------------------------||


E||--------------------------------|---- ---------------------------||

B||--12--12--10--12----------------|---- ---------------------------||

G||--12--12--10--12----------------|---- ---------------------------||

D||--12--12--10--12-----12-----11--|---- -10---------8-8--8---------||

A||--10--10---8--10----------------|---- --------10---------10------||

E||--------------------------------|---- -----------------------10--||


fin

E||--------------------------------|---- ----------------------------||

B||--------------------------------|---- ----------------------------||

G||--11--11---9--11----------------|---- ----------------------------||

D||---x---x---x---x----------------|---- ---------------x-x----------||

A||--12--12--10--12-----12-----11--|---- -10---------8--x-x----------||

E||--10--10---8--10----------------|---- --------10---------10--/10--||


E||--------------------------------|---- ---------------------------||

B||--------------------------------|---- ---------------------------||

G||--11--11---9--11----------------|---- ------------10~------------||

D||---x---x---x---x----------------|---- -------------------12-----||

A||--12--12--10--12-----12-----11--|---- -10---------------------0--||

E||--10--10---8--10----------------|---- --------10-----------------||



refrain

E||----------------------|-------------- --------||

B||----------------------|--5----x------ ---x----||

G||--6---6-6-------------|--5----x----4- ---x----||

D||--7---7-7-------------|--5----x----5- ---x----||

A||--7---7-7-------------|--3----x----5- ---x----||

E||--5---5-5-------------|------------3- --------||


E||--------------------------|---------- -------------------||

B||--------------------------|---------- -------------------||

G||--6---6-6-----6---6-6-----|--6---6-6- 6--6-6--6--6-------||

D||--7---7-7-----7---7-7-----|--7---7-7- 7--7-7--7--7-------||

A||--7---7-7-----7---7-7-----|--7---7-7- 7--7-7--7--7-------||

E||--5---5-5-----5---5-5-----|--5---5-5- 5--5-5--5--5--/10--||



J'utilise le micro simple manche pour le couplet et l'intro, et j'utilise le micro simple en position intermédiaire pour le refrain. J'utilise le canal crunch de l'ampli avec le crunch à font, les basses à 6 et mes treeble à 5. Il n'y a pas de pédal suplémentaire.




01/05/2009
0 Poster un commentaire
Ces blogs de Musique pourraient vous intéresser

Inscrivez-vous au blog

Soyez prévenu par email des prochaines mises à jour

Rejoignez les 124 autres membres