7 ème cour : Marilyn Manson - Sweet Dreams

Une chanson encore une fois très connu, avec une bonne disto, mais bien sur les joueur sur acoustiques peuvent la jouer, mais le son n’est pas le même…


Cette chanson va faire un peu travailler la tenu de l’accord ( tenir la même position avec la main gauche) et l’utilisation du petit doigt gauche.

Chanson à travailler lentement, notamment pour le refrain où il est utile de compter.

Le solo est compliqué puisse qu’il y a beaucoups de note longue, donc il ne faut pas allé trop vite, écoute bien le morceau avant de commencer à l’apprendre.


Une fois apprise, c’est un réel plaisir de la jouer ! !



Voici le texte sur la vidéo 1 (couplet + refrain) :


Un cour de guitare en français (avec la partition sur la vidéo) sur le refrain et le couplet de Sweet Dreams de Marilyn Manson.


partition :

couplet

---------------------------------

------5---6---5-------------------

-3-3---3---3---3-----6/8-----5/6-

--------------------4-4-----3-3-----


refrain :

---------------------------------------- ---5-5-5-5 -5-5-5-5-

-6-6-6-6-6-6-6-6-!-6-6-6-6-6-5-5-5-5-5-5 -5-5-5-5-

-6-6-6-6-6-6-6-6-!-6-6-6-6-6-5-5-3-3-3-3 -3-3-3-3-

-4-4-4-4-4-4-4-4-!-4-4-4-4-4-3-3-------- ---------

...........8 fois.......!.5 fois......2 fois....8 fois.....


---------------------------------------- --------- -----

6-6-6-6-6-6-6-5-6-6-6-6-6-6-6-6-5-----5- ----

6-6-6-6-6-6-6-5-6-6-6-6-6-6-6-6-5-----5- ----

4-4-4-4-4-4-4-3-4-4-4-4-4-4-4-4-3-----3- ----

...7 fois...... 1 fois.......8 fois.....1 fois 1 fois


---------------------------------------- ------

-----------^---------------^------------ ---^----

-5-3--5--7----5-3--5--7----5-3--5--7----


----------^----------------------------- --

---------6--------------^-------------^-- --

5-3--5------5-3--5--7---5-3--5--7---


--------5--

-6--5--5--

-6--5--3--

-4--3-----


j'utilise sur la vidéo le micro double position chevalet, réglage de l'ampli : disto:8/10, bass:-3, middle:-3, treeble:1, volume:1


j'ai trouvé un son plus aigu qui colle peu être plus pour le refrain réglage : disto:8/10, bass:0, middle:-1, treeble:1, volume:1



Voici la seconde vidéo (le solo) :

cour de guitare en français (avec la partition sur la vidéo) sur le solo de Sweet Dream de Marilyn Manson.

partition
solo:
--/v----------------11--------------^--- -----------------------
--6-------11--13-----11--13-11----------- ------------------
--------------------------------------11- --------------^---^--^--^---
---------------------------------------------10-8-10---------------
----------------------------------------- ---------------9---9--9--9---
---------------------------------------- --------------------------------8-

--------------------------^-------------- ---11--14---------
------------------------------11-13--11-- ----------13----
-^-^----^---------------10---------------- -------------
-------10-10-12-13---------------------- -----------
---8------------------------------------ -----------
-8-------------------------------------- -----------

refrain final :

---------------------------^------------ --------------
-----------^--------------6------------- ^--------------
-5-3--5--7----5-3--5------5--3--5-7----5 --3--5---


-8--6--8-10---8--6--8-------8--6--8-10---- -8-6--8--10----13-
-----------------------------6---------- -------------------------
---------------------------------------- ------------------


---------5--
-6--5--5--
-6--5--3--
-4--3-----





08/01/2009
15 Poster un commentaire
Ces blogs de Musique pourraient vous intéresser

Inscrivez-vous au blog

Soyez prévenu par email des prochaines mises à jour

Rejoignez les 124 autres membres