13 ème cours : Metallica - Enter Sandman

Bon est bien dans ce cours, il va falloir avoir une bonne grosse disto, mais avant ça on commence avec une intro en son claire, que je joue avec le micro manche et le volume de la guitare un peu baissé, c’est le thème principal, il n’est pas très compliqué, mais il faut faire attention à bien faire les sauts de corde (surtout entre la 3ème et la 1ère corde).    Ensuite on attaque le couplet avec une bonne grosse disto et plein de palm mute, j’utilise le micro double chevalet. Il faut bien écouter cette partie car elle est assez complexe à réaliser quand on ne connaît pas bien la chanson, regardé bien la vidéo pour voir quand changer de riff.  

On continu avec le riff principal qui ressemble à la mélodie d’intro mais en plus bourrin, attention à bien jouer le nombre correcte de corde à vide, et à palm muter les cordes grave de temps en temps.  Couplet suivant, tujours en disto, et en palm mute.   Le thème plus aigu.   Puis le refrain, tout en power chord, attention à la fin qui n’est pas troip évidente.   Et puis on recommence les riff dans un ordre différent.     

 

Amuse-toi bien !! ; )    

 

La première vidéo :

 

 

Voici la tab qui correspond :

 

- intro (son claire, micro simple manche, volume sur la guitare bassé)

E|------------------------|
B|------------------------|
G|------------------------|
D|----------5-------------|
A|-------7-------------7--|
E|--0----------6--5-------|

Couplet (saturé, micro double chevalet)
juste après l'intro, 1 fois
E|--------------------------|
B|--------------------------|
G|--------------------------|
D|--------------------------|
A|--2-------------------------7--|
E|--0--0--0--0--0--0--0-----|

répété 4 fois
E|--------------------------|
B|--------------------------|
G|--------------------------|
D|--------------------------|
A|----------------------------7--|
E|--0--0--0--0--0--0--0-----|

après avertissement de la batterie, 4 fois
E|--------------------------|
B|--------------------------|
G|--------------------------|
D|--------------------------|
A|---------7-----------------3--|
E|--0--0-----6--0--0--0--1--|

après 2nd avertissement de la batterie, 8 fois
E|--------------------------|
B|--------------------------|
G|--------------------------|
D|--------------------------|
A|---------7-----------------3--|
E|--0--0-----6--5--0--0--1--|

riff pricipal 1, 3 fois
E|-------------------------|
B|-------------------------|
G|-------------------------|
D|-------------------------|
A|--2----2--7--------------|
E|--0----0-----6--5~----0--|

1 fois
E|----------------------------|
B|----------------------------|
G|----------------------------|
D|----------------------------|
A|--5--------4------4--5--4--2--|
E|--3----0--2--0--2--3--2--0--|

 

 


 

La deuxième vidéo :

 

 

 

Voici la tab qui correspond : 

 

couplet, 2 fois
E|--------------------------|
B|--------------------------|
G|--------------------------|
D|--------------------------|
A|--3-----------------------|
E|--1--0--0--0--0--0--0--0--|

suite 1 fois
E|-------------------------|
B|-------------------------|
G|-------------------------|
D|-------------------------|
A|--5--------4-----4--5--4--|
E|--3----0--2--0--2--3--2--|

riff principal 2 aigu, 4 fois (pré-refrain)
E|------------------------|
B|------------------------|
G|----------2-------------|
D|-------4-------------4--|
A|-------------3--2-------|
E|--2---------------------|

Refrain
E|----------------------|
B|----------------------|
G|----------------------|
D|-----------------4------|
A|--4------4--3--2------|
E|--2------2------------|

E|-----------------------|
B|-----------------------|
G|-----------------------|
D|------------------4------|
A|--4----4--4--3--2------|
E|--2----2--2------------|

E|-----------------------|
B|-----------------------|
G|-----------------------|
D|-----------------4-------|
A|--4------4--3--2---2---|
E|--2------2-----------0---|

E|--------------------------|
B|--------------------------|
G|--------------------------|
D|--------------------------|
A|--5--2--4--2--4--5--4--2--|
E|--3--0--2--0--2--3--2--0--|



02/08/2009
1 Poster un commentaire
Ces blogs de Musique pourraient vous intéresser

Inscrivez-vous au blog

Soyez prévenu par email des prochaines mises à jour

Rejoignez les 124 autres membres