12 ème cours : AC DC - Back in Black

Donc une chanson connu, vous n’aurez pas de mal à reconnaître ce magnifique morceau dès les premières notes, il n’y a rien de plus simple que d’apprendre une chanson connu car vous connaissez déjà l’air, il ne manque qu’à connaître les notes et c’est partie.


Pour le couplet, je vous conseille vivement de jouer lentement la première fois et de vraiment augmenter la vitesse qu’une fois que tu maîtrise bien le riff, surtout pour la fin. Il y a un passage franchement pas cool à jouer car il faut écarté les doigts, mais j’ai la solution (malheureusement je n’y ai pas pensé avant de faire la vidéo donc je le dis juste ici), il suffit de jouer comme cela :


E||--------------------------|----------------------------||

B||----------3-3-3-----------|----------------------------||

G||----------2-2-2-------2-2-|--2-------------------------||

D||--2-------0-0-0-------2-2-|--2-------------------------||

A||--2-------------------0-0-|--0----2----2-0--2-1---2-2--||

E||--0-----------------------|---------4------------------||


Ensuite on joue le refrain, bon des accords basic, rien de trop compliqué, mais fait attention à bien rester dans le rythme car sur cette chanson ça sonne vraiment mal lorsqu’on ait décalé. La rythmique pendant le solo, rien à dire. Le pont, la il va aussi falloir bosser lentement parce que c’est assez chaud à faire, c’est rapide, avec plein de notes et pas toujours facile à atteindre. Mais pour ce dernier problème, j’ai une petite astuce, il suffit de jouer de cette façon :


E||-------------------------------||

B||-------------------------------||

G||-------------------------------||

D||-------------------------------||

A||----5p-4-2-4----2-0--2-1---2-2-||

E||--0----------3-----------------||


Et puis voilà, il ne manque que le solo, mais bon je pense que ceux qui le souhaitent vraiment peuvent réussir à l’apprendre tout seul. Je vous souhaite de réussir à apprendre ce morceau car à quoi ça sert de savoir jouer de la guitare si on ne connais pas ce morceau ? Bonne gratte !


Voici les vidéos :



Voici la tab :


Un cour en français, avec la tab sur la vidéo, sur la chanson Back in Black du groupe AC DC, voici la tab :


AC/DC - Back in Black


intro (mute)


E||-------x---------x----|-------x-------------||

B||-------x---------x----|-------x-------------||

G||--x----x----x----x----|--x----x-------------||

D||--x---------x---------|--x------------------||

A||--x---------x---------|--x------------------||

E||----------------------|---------------------||



couplet

E||--------------------------|--------------3-0------------||

B||----------3-3-3-----------|------------------3-0--------||

G||----------2-2-2-------2-2-|--2-------------------2br--0-||

D||--2-------0-0-0-------2-2-|--2--------------------------||

A||--2-------------------0-0-|--0--------------------------||

E||--0-----------------------|-----------------------------||


E||--------------------------|----------------------------||

B||----------3-3-3-----------|----------------------------||

G||----------2-2-2-------2-2-|--2-------------------------||

D||--2-------0-0-0-------2-2-|--2-------------------------||

A||--2-------------------0-0-|--0----2----2----2-----2----||

E||--0-----------------------|---------4----5----6-----7--||



refrain

E||------------------------|--3---2------------------||

B||------------------------|--3---3------------------||

G||--2-------4---2----4----|--0---2---2---------2----||

D||--2---2---4---2----4----|--0---0---2---------2----||

A||--0---2---2---0----2----|--x-------0---------0----||

E||------0-----------------|--3-----------3-3b-------||


E||--3---3-3-3-3---3-3-3-3-|--2---2---2------------||

B||--3---3-3-3-3---3-3-3-3-|--3---3---3------------||

G||--0---0-0-0-0---0-0-0-0-|--2---2---2------------||

D||--0---0-0-0-0---0-0-0-0-|--0---0---0------------||

A||--x---x-x-x-x---x-x-x-x-|-----------------------||

E||--3---3-3-3-3---3-3-3-3-|-----------------------||



rythmique pendant le solo

E||--------------------------|----------------------------||

B||--------------------------|----------------------------||

G||--------------------------|----------------------------||

D||--2-----------------------|----------2-2-2--2-2-2--2-2-||

A||--2-------5-5-5-------4-4-|--4-------2-2-2--2-2-2--2-2-||

E||--0-------0-0-0-------0-0-|--0-------0-0-0--0-0-0--0-0-||


E||--------------------------|------------------------||

B||--------------------------|-------------2-------2--||

G||--------------------------|-------------2-------2--||

D||--2-----------------------|----------2--2---2---2--||

A||--2-------5-5-5-------4-4-|--4-------2--0---2---0--||

E||--0-------0-0-0-------0-0-|--0-------0------0------||



autre riff

E||-------------------------------||

B||-------------------------------||

G||-------------------------------||

D||-------------------------------||

A||----5p-4-2-4----2----2----2----||

E||--0----------3----5----6----7--||


E||-------------------------------||

B||-------------------------------||

G||-------------------------------||

D||----5p-4-2-4----2----2----2----||

A||--0----------3----5----6----7--||

E||-------------------------------||


E||-------------------------------||

B||-------------------------------||

G||-------------------------------||

D||----5p-4-2-4----2----2----2----||

A||--0----------3----5----6----7--||

E||-------------------------------||


j'utilise le micro double en position chevalet, une pédal de distortion Ibanez SM7 et un ampli Harke GT60 sur le canal 2 avec comme réglage :

basse : 5, mid: 8, treeble: 5 et un peu de réverbe : 3




04/05/2009
19 Poster un commentaire
Ces blogs de Musique pourraient vous intéresser

Inscrivez-vous au blog

Soyez prévenu par email des prochaines mises à jour

Rejoignez les 124 autres membres