11 Three days grace - animal i have become

Bon avant de lâcher ses cheveux et les faire virevolté au rythme de la chanson (voir intro pour comprendre) il faut d’abord apprendre cette chanson. Ne vous inquiettez pas, rien de trop difficile vraiment. La seul chose qui peut poser problème est l’accordage, et oui car il va falloir s’accorder. Pas de problème vous avez toujours votre guitare bien accorder ? et bien si justement car nous n’allons pas accorder la guitare avec un accordage standard/habituelle. On va s’accorder en Drop C. Pour cela j’ai fait une vidéo explicative sur la façon de s’accorder. La voilà :



Voilà maintenant vous pouvez dire que vous êtes accordé (enfin pour cette chanson seulement, ensuite il faudra a nouveau s’accorder avec un accordage standard afin de jouer les autres chansons, et oui c’est chiant …). Enfin bon maintenant qu’on c’est bien accordé, autant apprendre cette chanson non ? bon alors on y va. Pour commencer, on joue un petit riff simple, des cordes à vide (gratté n’importe comment c’est bon pas de problème ,hein les chevelus ? ^^). Ensuite on joue avec un doigt… vraiment simple, par contre, il faut bien compter le nombre de note à jouer dans le bon rythme sinon ça marche pas (et la aussi tu peux gratter en sautant partout ^^). Et pour le reste de la chanson c’est pareil. Donc voilà on a une chanson très simple à jouer où on peut vraiment ce permettre de se lâcher (tant qu’on lâche pas la guitare ^^) sur scène. Un dernier riff que tu peux apprendre dans cette chanson, c’est une partie un peu mélodique qui se joue dans le refrain, et qui est bien sympa elle aussi.


Donc la rien d’autre à dire que … ECLATEZ – VOUS  ! ! ! !


Voici les vidéos :



Voici la tab :


E|----------------------------|

B|----------------------------|

G|----------------------------|

D|---0--0---------------------|

A|---0--0-----------7---------|

E|---0--0-----7--8-----8--7---|


E|--------------------------|

B|--------------------------|

G|--------------------------|

D|--3--3-----3--3--3-----3--|

A|--3--3-----3--3--3-----3--|

E|--3--3-----3--3--3-----3--|


E|--------------------------|

B|--------------------------|

G|--------------------------|

D|--3--3-----3--3--3--------|

A|--3--3-----3--3--3--------|

E|--3--3-----3--3--3--5~----|


E|--------------------------------------------|

B|--------------------------------------------|

G|--------------------------------------------|

D|--3--3-----3--3--3-----3--3--3-----3--3--3--|

A|--3--3-----3--3--3-----3--3--3-----3--3--3--|

E|--3--3-----3--3--3-----3--3--3-----3--3--3--|


E|-------------------------|

B|-------------------------|

G|-------------------------|

D|--3-5-5---5-5-5---5---8--|

A|--3-5-5---5-5-5---5---8--|

E|--3-5-5---5-5-5---5---8--|


E|-----------------------------|

B|-----------------------------|

G|-----------------------------|

D|---0----0----10--10--10--10--|

A|---0----0----10--10--10--10--|

E|---0----0----10--10--10--10--|


E|------------------------|

B|------------------------|

G|------------------------|

D|--3----3----7----7--8---|

A|--3----3----7----7--8---|

E|--3----3----7----7--8---|


E|-------------------------|

B|-------------------------|

G|-------------------------|

D|--3----3----5--5--3--2---|

A|--3----3----5--5--3--2---|

E|--3----3----5--5--3--2---|


E|-----------------------------|

B|-----------------------------|

G|-----------------------------|

D|--3----3----5----3--2-----0--|

A|--3----3----5----3--2-----0--|

E|--3----3----5----3--2-----0--|


E|--------------12----12----|--13----13----17----17--18--|

B|--15----15----------------|----------------------------|

G|--------------------------|----------------------------|

D|--------------------------|----------------------------|

A|--------------------------|----------------------------|

E|--------------------------|----------------------------|


E|--------------12----12----|--13----13----15----13--12--|

B|--15----15----------------|----------------------------|

G|--------------------------|----------------------------|

D|--------------------------|----------------------------|

A|--------------------------|----------------------------|

E|--------------------------|----------------------------|


E|---------------------------|--------------------------|

B|---------------------------|--------------------------|

G|---------------------------|--------------------------|

D|---8--8-----8--8--8-----8--|--5--5--------------------|

A|---8--8-----8--8--8-----8--|--5--5-----------7--------|

E|---8--8-----8--8--8-----8--|--5--5-----7--8-----8--7--|


E|--------------------------|---------------------------|

B|--------------------------|---------------------------|

G|--------------------------|---------------------------|

D|--0--0-----0--0--0-----0--|--3--3-----3--3--3-----3---|

A|--0--0-----0--0--0-----0--|--3--3-----3--3--3-----3---|

E|--0--0-----0--0--0-----0--|--3--3-----3--3--3-----3---|


E|------------------------|-------------------|

B|------------------------|-------------------|

G|------------------------|-------------------|

D|------------------------|--0----------------|

A|-------------7----------|--0----------------|

E|--0---7---8------8---7--|--0----------------|


E|-------------------------|-------------------|

B|-------------------------|-------------------|

G|-------------9~----------|-------------------|

D|--0---7---8-------8---7--|--0----------------|

A|-------------------------|--0----------------|

E|-------------------------|--0----------------|


E|-------------------------|

B|-------------------------|

G|-------------9~----------|

D|--0---7---8-------8---7--|

A|-------------------------|

E|-------------------------|




04/05/2009
9 Poster un commentaire
Ces blogs de Musique pourraient vous intéresser

Inscrivez-vous au blog

Soyez prévenu par email des prochaines mises à jour

Rejoignez les 124 autres membres