10 ème cour : Blink 182 - What's My Age Again

Donc comme dis en intro, une chanson punk qui va vous faire travailler la vitesse, la précision, et la technique.

Donc dans toute la chanson (ou presque) la guitare est rapide, on joue pas mal de notes, donc il va falloir apprendre à être rapide surtout pour l'intro qui est aussi le couplet, et précis en même temps car il y a des saut de cordes assez embêtant, donc à travailler lentement avant de le jouer plus vite. Ensuite il y a de la vitesse encore pour le refrain où on va jouer qu'en power-chords (voir cour sur les power-chords), bien compter le nombre de note joué par power-chords. Après on attaque un pont qui fait transition entre refrain et couplet, qui se joue en power-chords avec encore un palemute, (voir cour sur le palmute). Et bien entendu on fini par un petit solo sympa et facile à jouer.


Pas d'indication particulière, or mit bien sur pour les techniques spéciale utilisé où il faut se référer aux cour approprié pour en savoir un peu plus. Bon cours ! !


Voici la vidéo :



Voici ce qui accompagne la vidéo :


un cour en français (avec la partition sur la vidéo sur la chanson de BLINK 182 : What's My Age Again


réglages son claire : micro simple manche et intermédiaire (2ème position) et volume de la guitare sur 4/10

réglage son saturé : miicro chevalet double et volume de la guitare à font


partition :

intro + couplet :

e----------------------------------------------

-------11---------11---------11----------11----

----11----11---11----11---11----11----11----11-

--9--------------------------------------------

-------------9---------------------------------

E-----------------------9----------11----------



Refrain :

e------------------------------------------

------------------------------------------

---------6-6-x-8-8-8-x-4-4-4-4-x-----------------------

--4--4-x-6-6-x-8-8-8-x-4-4-4-4-x--------------------------

--4--4-x-4-4-x-6-6-6-x-2-2-2-2-x--------------------------

E-2--2-x--------------------------------------



e------------------------------------------

------------------------------------------

---------6-6-x-8-8-8-8--8--6-6-6-6--6--4------------

--4--4-x-6-6-x-8-8-8-8--8--6-6-6-6--6--4---------------

--4--4-x-4-4-x-6-6-6-6--6--4-4-4-4--4--2---------------

E-2--2-x-------------------------------- ------



Pont (pall mute) :

e--------------------------------------- --------

---------------------------------------- -------

--4-4-4-4---------6-6-6-6-8-8-8-8----- ---------------------

--4-4-4-4-4-4-4-4-6-6-6-6-8-8-8-8------- -----------------------

--2-2-2-2-4-4-4-4-4-4-4-4-6-6-6-6------- -----------------------

E-----------2-2-2-2--------------------- --------------



e--------------------------------------- --------

---------------------------------------- -------

--6-6-6-6-6-6-6-6-8-8-8-8-8-8-8-8-4----- ----

--6-6-6-6-6-6-6-6-8-8-8-8-8-8-8-8-4----- --------

--4-4-4-4-4-4-4-4-6-6-6-6-6-6-6-6-2----- --------

E--------------------------------------- ---



Solo (à la fin, avant le refrain final)

e-----------------------I----------------------------

------11------11--------I-------------------------------

---------11-------11-11-I---------------------------------

--9---------------------I-----------8-9-------------------

------------------------I--9-9-9-----------------------

E-----------------------I----------------------------



e-------------------------------------------------

-------------------------------------------------

-----------11----------------------11--------------------------

-----8---------8-----8-------8---------8-----8-----------------------

--9-----9---------9-----9-9-----9---------9------------------------

E-------------------------------------------------




03/05/2009
3 Poster un commentaire
Ces blogs de Musique pourraient vous intéresser

Inscrivez-vous au blog

Soyez prévenu par email des prochaines mises à jour

Rejoignez les 124 autres membres